ISO-10303-21;
HEADER;

/* File generated by Shapr3D Version 5.930.0.9346 */

FILE_DESCRIPTION(('HOOPS Exchange Step'),'2;1');

FILE_NAME('/Users/chrishayford/Library/Containers/com.shapr3d.shapr/Data/tmp/export/temp_export',
'2025-08-23T17:23:08+01:00',
('chrishayford'),
('Shapr3D Limited'),
'HOOPS Exchange 2025.6',
'Shapr3D',
'Authorized');

FILE_SCHEMA( ('AP242_MANAGED_MODEL_BASED_3D_ENGINEERING_MIM_LF {1 0 10303 442 1 1 4}') );

ENDSEC;

DATA;
#3=(NAMED_UNIT(*)PLANE_ANGLE_UNIT()SI_UNIT($,.RADIAN.));
#4=PLANE_ANGLE_MEASURE_WITH_UNIT(PLANE_ANGLE_MEASURE(0.0174532925),#3);
#5=(CONVERSION_BASED_UNIT('DEGREE',#4)NAMED_UNIT(#6)PLANE_ANGLE_UNIT());
#6=DIMENSIONAL_EXPONENTS(0.,0.,0.,0.,0.,0.,0.);
#7=(NAMED_UNIT(*)SI_UNIT($,.STERADIAN.)SOLID_ANGLE_UNIT());
#8=(LENGTH_UNIT()NAMED_UNIT(*)SI_UNIT(.MILLI.,.METRE.));
#9=UNCERTAINTY_MEASURE_WITH_UNIT(LENGTH_MEASURE(1.000000E-05),#8,'DISTANCE_ACCURACY_VALUE','Maximum Tolerance applied to model');
#10=(GEOMETRIC_REPRESENTATION_CONTEXT(3)GLOBAL_UNCERTAINTY_ASSIGNED_CONTEXT((#9))GLOBAL_UNIT_ASSIGNED_CONTEXT((#8,#5,#7))REPRESENTATION_CONTEXT('','root'));
#12=CARTESIAN_POINT('',(0.,0.,0.));
#13=DIRECTION('',(0.,0.,1.));
#14=DIRECTION('',(1.,0.,0.));
#15=AXIS2_PLACEMENT_3D('TS3D_PRODUCT_CSYS',#12,#13,#14);
#27=CARTESIAN_POINT('',(-190.,-23.670168095,10.));
#28=DIRECTION('',(-0.,1.,0.));
#29=DIRECTION('',(-1.,-0.,0.));
#30=AXIS2_PLACEMENT_3D('',#27,#28,#29);
#31=PLANE('',#30);
#32=CARTESIAN_POINT('',(-590.,-23.670168095,0.));
#33=VERTEX_POINT('',#32);
#34=CARTESIAN_POINT('',(210.,-23.670168095,0.));
#35=VERTEX_POINT('',#34);
#36=CARTESIAN_POINT('',(-590.,-23.670168095,0.));
#37=DIRECTION('',(1.,0.,0.));
#38=VECTOR('',#37,800.);
#39=LINE('',#36,#38);
#40=EDGE_CURVE('',#33,#35,#39,.T.);
#41=ORIENTED_EDGE('',*,*,#40,.T.);
#42=CARTESIAN_POINT('',(210.,-23.670168095,10.));
#43=VERTEX_POINT('',#42);
#44=CARTESIAN_POINT('',(210.,-23.670168095,10.));
#45=DIRECTION('',(0.,0.,-1.));
#46=VECTOR('',#45,10.);
#47=LINE('',#44,#46);
#48=EDGE_CURVE('',#43,#35,#47,.T.);
#49=ORIENTED_EDGE('',*,*,#48,.F.);
#50=CARTESIAN_POINT('',(-590.,-23.670168095,10.));
#51=VERTEX_POINT('',#50);
#52=CARTESIAN_POINT('',(-590.,-23.670168095,10.));
#53=DIRECTION('',(1.,0.,0.));
#54=VECTOR('',#53,800.);
#55=LINE('',#52,#54);
#56=EDGE_CURVE('',#51,#43,#55,.T.);
#57=ORIENTED_EDGE('',*,*,#56,.F.);
#58=CARTESIAN_POINT('',(-590.,-23.670168095,10.));
#59=DIRECTION('',(0.,0.,-1.));
#60=VECTOR('',#59,10.);
#61=LINE('',#58,#60);
#62=EDGE_CURVE('',#51,#33,#61,.T.);
#63=ORIENTED_EDGE('',*,*,#62,.T.);
#64=EDGE_LOOP('',(#41,#49,#57,#63));
#65=FACE_BOUND('',#64,.T.);
#66=ADVANCED_FACE('',(#65),#31,.F.);
#67=CARTESIAN_POINT('',(210.,-33.670168095,10.));
#68=DIRECTION('',(1.,0.,0.));
#69=DIRECTION('',(0.,0.,-1.));
#70=AXIS2_PLACEMENT_3D('',#67,#68,#69);
#71=PLANE('',#70);
#72=CARTESIAN_POINT('',(210.,-43.670168095,0.));
#73=VERTEX_POINT('',#72);
#74=CARTESIAN_POINT('',(210.,-23.670168095,0.));
#75=DIRECTION('',(0.,-1.,0.));
#76=VECTOR('',#75,20.);
#77=LINE('',#74,#76);
#78=EDGE_CURVE('',#35,#73,#77,.T.);
#79=ORIENTED_EDGE('',*,*,#78,.T.);
#80=CARTESIAN_POINT('',(210.,-43.670168095,10.));
#81=VERTEX_POINT('',#80);
#82=CARTESIAN_POINT('',(210.,-43.670168095,10.));
#83=DIRECTION('',(0.,0.,-1.));
#84=VECTOR('',#83,10.);
#85=LINE('',#82,#84);
#86=EDGE_CURVE('',#81,#73,#85,.T.);
#87=ORIENTED_EDGE('',*,*,#86,.F.);
#88=CARTESIAN_POINT('',(210.,-23.670168095,10.));
#89=DIRECTION('',(0.,-1.,0.));
#90=VECTOR('',#89,20.);
#91=LINE('',#88,#90);
#92=EDGE_CURVE('',#43,#81,#91,.T.);
#93=ORIENTED_EDGE('',*,*,#92,.F.);
#94=ORIENTED_EDGE('',*,*,#48,.T.);
#95=EDGE_LOOP('',(#79,#87,#93,#94));
#96=FACE_BOUND('',#95,.T.);
#97=ADVANCED_FACE('',(#96),#71,.F.);
#98=CARTESIAN_POINT('',(-190.,-43.670168095,10.));
#99=DIRECTION('',(0.,-1.,0.));
#100=DIRECTION('',(1.,0.,0.));
#101=AXIS2_PLACEMENT_3D('',#98,#99,#100);
#102=PLANE('',#101);
#103=CARTESIAN_POINT('',(-590.,-43.670168095,0.));
#104=VERTEX_POINT('',#103);
#105=CARTESIAN_POINT('',(210.,-43.670168095,0.));
#106=DIRECTION('',(-1.,-0.,0.));
#107=VECTOR('',#106,800.);
#108=LINE('',#105,#107);
#109=EDGE_CURVE('',#73,#104,#108,.T.);
#110=ORIENTED_EDGE('',*,*,#109,.T.);
#111=CARTESIAN_POINT('',(-590.,-43.670168095,10.));
#112=VERTEX_POINT('',#111);
#113=CARTESIAN_POINT('',(-590.,-43.670168095,10.));
#114=DIRECTION('',(0.,0.,-1.));
#115=VECTOR('',#114,10.);
#116=LINE('',#113,#115);
#117=EDGE_CURVE('',#112,#104,#116,.T.);
#118=ORIENTED_EDGE('',*,*,#117,.F.);
#119=CARTESIAN_POINT('',(210.,-43.670168095,10.));
#120=DIRECTION('',(-1.,-0.,0.));
#121=VECTOR('',#120,800.);
#122=LINE('',#119,#121);
#123=EDGE_CURVE('',#81,#112,#122,.T.);
#124=ORIENTED_EDGE('',*,*,#123,.F.);
#125=ORIENTED_EDGE('',*,*,#86,.T.);
#126=EDGE_LOOP('',(#110,#118,#124,#125));
#127=FACE_BOUND('',#126,.T.);
#128=ADVANCED_FACE('',(#127),#102,.F.);
#129=CARTESIAN_POINT('',(230.,-91.670168095,10.));
#130=DIRECTION('',(1.,0.,0.));
#131=DIRECTION('',(0.,0.,-1.));
#132=AXIS2_PLACEMENT_3D('',#129,#130,#131);
#133=PLANE('',#132);
#134=CARTESIAN_POINT('',(230.,-3.670168095,0.));
#135=VERTEX_POINT('',#134);
#136=CARTESIAN_POINT('',(230.,-179.670168095,0.));
#137=VERTEX_POINT('',#136);
#138=CARTESIAN_POINT('',(230.,-3.670168095,0.));
#139=DIRECTION('',(0.,-1.,0.));
#140=VECTOR('',#139,176.);
#141=LINE('',#138,#140);
#142=EDGE_CURVE('',#135,#137,#141,.T.);
#143=ORIENTED_EDGE('',*,*,#142,.F.);
#144=CARTESIAN_POINT('',(230.,-3.670168095,10.));
#145=VERTEX_POINT('',#144);
#146=CARTESIAN_POINT('',(230.,-3.670168095,10.));
#147=DIRECTION('',(0.,0.,-1.));
#148=VECTOR('',#147,10.);
#149=LINE('',#146,#148);
#150=EDGE_CURVE('',#145,#135,#149,.T.);
#151=ORIENTED_EDGE('',*,*,#150,.F.);
#152=CARTESIAN_POINT('',(230.,-179.670168095,10.));
#153=VERTEX_POINT('',#152);
#154=CARTESIAN_POINT('',(230.,-3.670168095,10.));
#155=DIRECTION('',(0.,-1.,0.));
#156=VECTOR('',#155,176.);
#157=LINE('',#154,#156);
#158=EDGE_CURVE('',#145,#153,#157,.T.);
#159=ORIENTED_EDGE('',*,*,#158,.T.);
#160=CARTESIAN_POINT('',(230.,-179.670168095,10.));
#161=DIRECTION('',(0.,0.,-1.));
#162=VECTOR('',#161,10.);
#163=LINE('',#160,#162);
#164=EDGE_CURVE('',#153,#137,#163,.T.);
#165=ORIENTED_EDGE('',*,*,#164,.T.);
#166=EDGE_LOOP('',(#143,#151,#159,#165));
#167=FACE_BOUND('',#166,.T.);
#168=ADVANCED_FACE('',(#167),#133,.T.);
#169=CARTESIAN_POINT('',(-190.,-3.670168095,10.));
#170=DIRECTION('',(-0.,1.,0.));
#171=DIRECTION('',(-1.,-0.,0.));
#172=AXIS2_PLACEMENT_3D('',#169,#170,#171);
#173=PLANE('',#172);
#174=CARTESIAN_POINT('',(-610.,-3.670168095,0.));
#175=VERTEX_POINT('',#174);
#176=CARTESIAN_POINT('',(-610.,-3.670168095,0.));
#177=DIRECTION('',(1.,0.,0.));
#178=VECTOR('',#177,840.);
#179=LINE('',#176,#178);
#180=EDGE_CURVE('',#175,#135,#179,.T.);
#181=ORIENTED_EDGE('',*,*,#180,.F.);
#182=CARTESIAN_POINT('',(-610.,-3.670168095,10.));
#183=VERTEX_POINT('',#182);
#184=CARTESIAN_POINT('',(-610.,-3.670168095,10.));
#185=DIRECTION('',(0.,0.,-1.));
#186=VECTOR('',#185,10.);
#187=LINE('',#184,#186);
#188=EDGE_CURVE('',#183,#175,#187,.T.);
#189=ORIENTED_EDGE('',*,*,#188,.F.);
#190=CARTESIAN_POINT('',(-610.,-3.670168095,10.));
#191=DIRECTION('',(1.,0.,0.));
#192=VECTOR('',#191,840.);
#193=LINE('',#190,#192);
#194=EDGE_CURVE('',#183,#145,#193,.T.);
#195=ORIENTED_EDGE('',*,*,#194,.T.);
#196=ORIENTED_EDGE('',*,*,#150,.T.);
#197=EDGE_LOOP('',(#181,#189,#195,#196));
#198=FACE_BOUND('',#197,.T.);
#199=ADVANCED_FACE('',(#198),#173,.T.);
#200=CARTESIAN_POINT('',(-610.,-91.670168095,10.));
#201=DIRECTION('',(-1.,0.,0.));
#202=DIRECTION('',(0.,0.,1.));
#203=AXIS2_PLACEMENT_3D('',#200,#201,#202);
#204=PLANE('',#203);
#205=CARTESIAN_POINT('',(-610.,-179.670168095,0.));
#206=VERTEX_POINT('',#205);
#207=CARTESIAN_POINT('',(-610.,-179.670168095,0.));
#208=DIRECTION('',(0.,1.,0.));
#209=VECTOR('',#208,176.);
#210=LINE('',#207,#209);
#211=EDGE_CURVE('',#206,#175,#210,.T.);
#212=ORIENTED_EDGE('',*,*,#211,.F.);
#213=CARTESIAN_POINT('',(-610.,-179.670168095,10.));
#214=VERTEX_POINT('',#213);
#215=CARTESIAN_POINT('',(-610.,-179.670168095,10.));
#216=DIRECTION('',(0.,0.,-1.));
#217=VECTOR('',#216,10.);
#218=LINE('',#215,#217);
#219=EDGE_CURVE('',#214,#206,#218,.T.);
#220=ORIENTED_EDGE('',*,*,#219,.F.);
#221=CARTESIAN_POINT('',(-610.,-179.670168095,10.));
#222=DIRECTION('',(0.,1.,0.));
#223=VECTOR('',#222,176.);
#224=LINE('',#221,#223);
#225=EDGE_CURVE('',#214,#183,#224,.T.);
#226=ORIENTED_EDGE('',*,*,#225,.T.);
#227=ORIENTED_EDGE('',*,*,#188,.T.);
#228=EDGE_LOOP('',(#212,#220,#226,#227));
#229=FACE_BOUND('',#228,.T.);
#230=ADVANCED_FACE('',(#229),#204,.T.);
#231=CARTESIAN_POINT('',(-190.,-179.670168095,10.));
#232=DIRECTION('',(0.,-1.,0.));
#233=DIRECTION('',(1.,0.,0.));
#234=AXIS2_PLACEMENT_3D('',#231,#232,#233);
#235=PLANE('',#234);
#236=CARTESIAN_POINT('',(230.,-179.670168095,0.));
#237=DIRECTION('',(-1.,-0.,0.));
#238=VECTOR('',#237,840.);
#239=LINE('',#236,#238);
#240=EDGE_CURVE('',#137,#206,#239,.T.);
#241=ORIENTED_EDGE('',*,*,#240,.F.);
#242=ORIENTED_EDGE('',*,*,#164,.F.);
#243=CARTESIAN_POINT('',(230.,-179.670168095,10.));
#244=DIRECTION('',(-1.,-0.,0.));
#245=VECTOR('',#244,840.);
#246=LINE('',#243,#245);
#247=EDGE_CURVE('',#153,#214,#246,.T.);
#248=ORIENTED_EDGE('',*,*,#247,.T.);
#249=ORIENTED_EDGE('',*,*,#219,.T.);
#250=EDGE_LOOP('',(#241,#242,#248,#249));
#251=FACE_BOUND('',#250,.T.);
#252=ADVANCED_FACE('',(#251),#235,.T.);
#253=CARTESIAN_POINT('',(-590.,-33.670168095,10.));
#254=DIRECTION('',(-1.,0.,0.));
#255=DIRECTION('',(0.,0.,1.));
#256=AXIS2_PLACEMENT_3D('',#253,#254,#255);
#257=PLANE('',#256);
#258=CARTESIAN_POINT('',(-590.,-43.670168095,0.));
#259=DIRECTION('',(0.,1.,0.));
#260=VECTOR('',#259,20.);
#261=LINE('',#258,#260);
#262=EDGE_CURVE('',#104,#33,#261,.T.);
#263=ORIENTED_EDGE('',*,*,#262,.T.);
#264=ORIENTED_EDGE('',*,*,#62,.F.);
#265=CARTESIAN_POINT('',(-590.,-43.670168095,10.));
#266=DIRECTION('',(0.,1.,0.));
#267=VECTOR('',#266,20.);
#268=LINE('',#265,#267);
#269=EDGE_CURVE('',#112,#51,#268,.T.);
#270=ORIENTED_EDGE('',*,*,#269,.F.);
#271=ORIENTED_EDGE('',*,*,#117,.T.);
#272=EDGE_LOOP('',(#263,#264,#270,#271));
#273=FACE_BOUND('',#272,.T.);
#274=ADVANCED_FACE('',(#273),#257,.F.);
#275=CARTESIAN_POINT('',(0.,0.,10.));
#276=DIRECTION('',(0.,0.,1.));
#277=DIRECTION('',(1.,0.,0.));
#278=AXIS2_PLACEMENT_3D('',#275,#276,#277);
#279=PLANE('',#278);
#280=ORIENTED_EDGE('',*,*,#158,.F.);
#281=ORIENTED_EDGE('',*,*,#194,.F.);
#282=ORIENTED_EDGE('',*,*,#225,.F.);
#283=ORIENTED_EDGE('',*,*,#247,.F.);
#284=EDGE_LOOP('',(#280,#281,#282,#283));
#285=FACE_BOUND('',#284,.T.);
#286=ORIENTED_EDGE('',*,*,#56,.T.);
#287=ORIENTED_EDGE('',*,*,#92,.T.);
#288=ORIENTED_EDGE('',*,*,#123,.T.);
#289=ORIENTED_EDGE('',*,*,#269,.T.);
#290=EDGE_LOOP('',(#286,#287,#288,#289));
#291=FACE_BOUND('',#290,.T.);
#292=ADVANCED_FACE('',(#285,#291),#279,.T.);
#293=CARTESIAN_POINT('',(0.,0.,0.));
#294=DIRECTION('',(0.,0.,1.));
#295=DIRECTION('',(1.,0.,0.));
#296=AXIS2_PLACEMENT_3D('',#293,#294,#295);
#297=PLANE('',#296);
#298=ORIENTED_EDGE('',*,*,#142,.T.);
#299=ORIENTED_EDGE('',*,*,#240,.T.);
#300=ORIENTED_EDGE('',*,*,#211,.T.);
#301=ORIENTED_EDGE('',*,*,#180,.T.);
#302=EDGE_LOOP('',(#298,#299,#300,#301));
#303=FACE_BOUND('',#302,.T.);
#304=ORIENTED_EDGE('',*,*,#40,.F.);
#305=ORIENTED_EDGE('',*,*,#262,.F.);
#306=ORIENTED_EDGE('',*,*,#109,.F.);
#307=ORIENTED_EDGE('',*,*,#78,.F.);
#308=EDGE_LOOP('',(#304,#305,#306,#307));
#309=FACE_BOUND('',#308,.T.);
#310=ADVANCED_FACE('',(#303,#309),#297,.F.);
#311=CLOSED_SHELL('',(#66,#97,#128,#168,#199,#230,#252,#274,#292,#310));
#312=MANIFOLD_SOLID_BREP('Body 01',#311);
#313=COLOUR_RGB('',0.627451003,0.627451003,0.643137276);
#314=FILL_AREA_STYLE_COLOUR('',#313);
#315=FILL_AREA_STYLE('',(#314));
#316=SURFACE_STYLE_FILL_AREA(#315);
#317=SURFACE_SIDE_STYLE('',(#316));
#318=SURFACE_STYLE_USAGE(.BOTH.,#317);
#319=PRESENTATION_STYLE_ASSIGNMENT((#318));
#26=STYLED_ITEM('',(#319),#312);
#16=SHAPE_REPRESENTATION('root',(#15),#10);
#17=ADVANCED_BREP_SHAPE_REPRESENTATION('root',(#312),#10);
#327=SHAPE_REPRESENTATION_RELATIONSHIP('','',#16,#17);
#328=CARTESIAN_POINT('',(0.,0.,0.));
#329=DIRECTION('',(0.,0.,1.));
#330=DIRECTION('',(1.,0.,0.));
#331=AXIS2_PLACEMENT_3D('',#328,#329,#330);
#333=MAPPED_ITEM('',#332,#331);
#332=REPRESENTATION_MAP(#331,#16);
#334=APPLICATION_CONTEXT('Managed model based 3d engineering');
#335=APPLICATION_PROTOCOL_DEFINITION('international standard','ap242_managed_model_based_3d_engineering',2014,#334);
#336=PRODUCT_CONTEXT('',#334,'mechanical');
#337=PRODUCT_DEFINITION_CONTEXT('part definition',#334,'design');
#24=PRODUCT('root','root','',(#336));
#338=PRODUCT_RELATED_PRODUCT_CATEGORY('part','',(#24));
#339=PRODUCT_DEFINITION_FORMATION_WITH_SPECIFIED_SOURCE('','',#24,.NOT_KNOWN.);
#25=PRODUCT_DEFINITION('design','',#339,#337);
#23=PRODUCT_DEFINITION_SHAPE('','',#25);
#340=SHAPE_DEFINITION_REPRESENTATION(#23,#16);
#11=DRAUGHTING_MODEL('',(#333),#10);
#341=DESCRIPTIVE_REPRESENTATION_ITEM('KEY','/Users/chrishayford/Library/Containers/com.shapr3d.shapr/Data/tmp/23D64A93-B74D-4C39-B306-5688B8FA6E48.tmp');
#342=PROPERTY_DEFINITION('KEY','',#25);
#343=REPRESENTATION('',(#341),#10);
#344=PROPERTY_DEFINITION_REPRESENTATION(#342,#343);
#345=GENERAL_PROPERTY('','KEY','');
#346=GENERAL_PROPERTY_ASSOCIATION('','',#345,#342);
#1=MECHANICAL_DESIGN_GEOMETRIC_PRESENTATION_REPRESENTATION('',(#26),#10);
ENDSEC;
END-ISO-10303-21;
